In The Flesh?

(Bass)

Music by: Roger Waters

Revision by: Patrick Hengstler

Symbol Legend:

H= Hammer on

P= Pull off

/= Slide up

\= Slide Down

v= Manual vibrato

 

G|-----------------------------------|

D|-----------------------------------|

A|-----------------------------------|

E|-00------2vvvvvvvvvvvvv3vvvvvvvvvvv|

 

G|-----------------------------------|

D|-----------------------------------|

A|--0--2-3vvvvvvvvv10---5---7vvvvvvvv|

E|-----------------------------------|

 

G|2-2/4------2-2/4-------------------|

D|-----------------------------------|

A|-----------------------------------|

E|-----------------------------------|

 

G|-----------------------------------|

D|-----------------------------------|

A|-----------------------------------|

E|-00------2vvvvvvvvvvvvv3vvvvvvvvvvv|

 

 

G|-----------------------------------|

D|-----------------------------------|

A|--0--2-3vvvvvvvvv10---5---7vvvvvvvv|

E|-----------------------------------|

 

 

 

G|-----------------------------------|

D|-----------------------------------|

A|-----------------------------------|

E|----5-5------5-5-------------------|

 

G|-----------------------------------|

D|-----------------------------------|

A|-5---7---8---7---5---7---8---10----|

E|-----------------------------------|

 

Main Riff:

G|-----------------------------------|

D|-----------------------------------|

A|----4--2-----------5---4--2--------|

E|-5--------5--4-2-------------------|

 

G|-----------------------------------|

D|-----------------------------------|

A|----4--2-----------5---4--2--------|

E|-5--------5--4-2-------------------|

 

 

G|-----------------------------------|

D|-----------------------------------|

A|----4--2--0-1-2--5---4--2--3-4--7--|

E|-5---------------------------------|

 

G|-----------------------------------|

D|-----------------------------------|

A|--5---4----------------------------|

E|-------------H0----H0-H0-----------|

 

 

 

 

 

So Ya,

Thought ya

Might like to

Go to the show

To feel the warm

Thrill of confusion

That space cadet glow

Tell me is something Preluding you sunshine

Is this not what you expected to see

If ya wanna find out whats behind these cold eyes

Youll just have to claw your way through this disguise

 

Repeat Main riff and end with this:

 

G|-----------------------------------|

D|-----------------------------------|

A|-----------------------------------|

E|--5vvvvvvvvvvv55-5-55-5-555-5-5---|

 

This is not perfect.

Any changes that sound good send them to me.

My E-mail is naph130@yahoo.com